ISO-10303-21;
HEADER;
/* Generated by software containing ST-Developer
 * from STEP Tools, Inc. (www.steptools.com) 
 */
/* OPTION: using custom schema-name function */

FILE_DESCRIPTION(
/* description */ (''),
/* implementation_level */ '2;1');

FILE_NAME(
/* name */ '120MM SCALE A-6185-0012.stp',
/* time_stamp */ '2017-06-28T08:36:26+01:00',
/* author */ (''),
/* organization */ (''),
/* preprocessor_version */ 'ST-DEVELOPER v16',
/* originating_system */ 'SIEMENS PLM Software NX 10.0',
/* authorisation */ '');

FILE_SCHEMA (('AUTOMOTIVE_DESIGN { 1 0 10303 214 3 1 1 1 }'));
ENDSEC;

DATA;
#10=PROPERTY_DEFINITION_REPRESENTATION(#14,#12);
#11=PROPERTY_DEFINITION_REPRESENTATION(#15,#13);
#12=REPRESENTATION('',(#16),#199);
#13=REPRESENTATION('',(#17),#199);
#14=PROPERTY_DEFINITION('pmi validation property','',#21);
#15=PROPERTY_DEFINITION('pmi validation property','',#21);
#16=VALUE_REPRESENTATION_ITEM('number of annotations',COUNT_MEASURE(0.));
#17=VALUE_REPRESENTATION_ITEM('number of views',COUNT_MEASURE(0.));
#18=SHAPE_REPRESENTATION_RELATIONSHIP('None',
'relationship between mw132AD4F08F8u5g-None and mw132AD4F08F8u5g-None',
#30,#19);
#19=ADVANCED_BREP_SHAPE_REPRESENTATION('mw132AD4F08F8u5g-None',(#40),#199);
#20=SHAPE_DEFINITION_REPRESENTATION(#21,#30);
#21=PRODUCT_DEFINITION_SHAPE('','',#22);
#22=PRODUCT_DEFINITION(' ','',#24,#23);
#23=PRODUCT_DEFINITION_CONTEXT('part definition',#29,'design');
#24=PRODUCT_DEFINITION_FORMATION_WITH_SPECIFIED_SOURCE(' ',' ',#26,
 .NOT_KNOWN.);
#25=PRODUCT_RELATED_PRODUCT_CATEGORY('part','',(#26));
#26=PRODUCT('mw132AD4F08F8u5g','mw132AD4F08F8u5g',' ',(#27));
#27=PRODUCT_CONTEXT(' ',#29,'mechanical');
#28=APPLICATION_PROTOCOL_DEFINITION('international standard',
'automotive_design',2010,#29);
#29=APPLICATION_CONTEXT(
'core data for automotive mechanical design processes');
#30=SHAPE_REPRESENTATION('mw132AD4F08F8u5g-None',(#130),#199);
#31=PRESENTATION_LAYER_ASSIGNMENT('1','Layer 1',(#40));
#32=STYLED_ITEM('',(#33),#40);
#33=PRESENTATION_STYLE_ASSIGNMENT((#34));
#34=SURFACE_STYLE_USAGE(.BOTH.,#35);
#35=SURFACE_SIDE_STYLE('',(#36));
#36=SURFACE_STYLE_FILL_AREA(#37);
#37=FILL_AREA_STYLE('',(#38));
#38=FILL_AREA_STYLE_COLOUR('',#39);
#39=DRAUGHTING_PRE_DEFINED_COLOUR('green');
#40=MANIFOLD_SOLID_BREP('',#41);
#41=CLOSED_SHELL('',(#48,#49,#50,#51,#52,#53));
#42=CYLINDRICAL_SURFACE('',#134,0.1);
#43=CYLINDRICAL_SURFACE('',#138,0.0999999999999988);
#44=CIRCLE('',#132,0.1);
#45=CIRCLE('',#133,0.1);
#46=CIRCLE('',#136,0.0999999999999988);
#47=CIRCLE('',#137,0.0999999999999988);
#48=ADVANCED_FACE('',(#58),#54,.F.);
#49=ADVANCED_FACE('',(#59),#42,.T.);
#50=ADVANCED_FACE('',(#60),#55,.F.);
#51=ADVANCED_FACE('',(#61),#43,.T.);
#52=ADVANCED_FACE('',(#62),#56,.T.);
#53=ADVANCED_FACE('',(#63),#57,.F.);
#54=PLANE('',#131);
#55=PLANE('',#135);
#56=PLANE('',#139);
#57=PLANE('',#140);
#58=FACE_OUTER_BOUND('',#64,.T.);
#59=FACE_OUTER_BOUND('',#65,.T.);
#60=FACE_OUTER_BOUND('',#66,.T.);
#61=FACE_OUTER_BOUND('',#67,.T.);
#62=FACE_OUTER_BOUND('',#68,.T.);
#63=FACE_OUTER_BOUND('',#69,.T.);
#64=EDGE_LOOP('',(#70,#71,#72,#73));
#65=EDGE_LOOP('',(#74,#75,#76,#77));
#66=EDGE_LOOP('',(#78,#79,#80,#81));
#67=EDGE_LOOP('',(#82,#83,#84,#85));
#68=EDGE_LOOP('',(#86,#87,#88,#89));
#69=EDGE_LOOP('',(#90,#91,#92,#93));
#70=ORIENTED_EDGE('',*,*,#102,.T.);
#71=ORIENTED_EDGE('',*,*,#103,.F.);
#72=ORIENTED_EDGE('',*,*,#104,.F.);
#73=ORIENTED_EDGE('',*,*,#105,.T.);
#74=ORIENTED_EDGE('',*,*,#106,.T.);
#75=ORIENTED_EDGE('',*,*,#107,.F.);
#76=ORIENTED_EDGE('',*,*,#108,.F.);
#77=ORIENTED_EDGE('',*,*,#103,.T.);
#78=ORIENTED_EDGE('',*,*,#109,.T.);
#79=ORIENTED_EDGE('',*,*,#110,.F.);
#80=ORIENTED_EDGE('',*,*,#111,.F.);
#81=ORIENTED_EDGE('',*,*,#107,.T.);
#82=ORIENTED_EDGE('',*,*,#112,.T.);
#83=ORIENTED_EDGE('',*,*,#105,.F.);
#84=ORIENTED_EDGE('',*,*,#113,.F.);
#85=ORIENTED_EDGE('',*,*,#110,.T.);
#86=ORIENTED_EDGE('',*,*,#104,.T.);
#87=ORIENTED_EDGE('',*,*,#108,.T.);
#88=ORIENTED_EDGE('',*,*,#111,.T.);
#89=ORIENTED_EDGE('',*,*,#113,.T.);
#90=ORIENTED_EDGE('',*,*,#102,.F.);
#91=ORIENTED_EDGE('',*,*,#112,.F.);
#92=ORIENTED_EDGE('',*,*,#109,.F.);
#93=ORIENTED_EDGE('',*,*,#106,.F.);
#94=VERTEX_POINT('',#173);
#95=VERTEX_POINT('',#174);
#96=VERTEX_POINT('',#176);
#97=VERTEX_POINT('',#178);
#98=VERTEX_POINT('',#182);
#99=VERTEX_POINT('',#184);
#100=VERTEX_POINT('',#188);
#101=VERTEX_POINT('',#190);
#102=EDGE_CURVE('',#94,#95,#114,.T.);
#103=EDGE_CURVE('',#96,#95,#115,.T.);
#104=EDGE_CURVE('',#97,#96,#116,.T.);
#105=EDGE_CURVE('',#97,#94,#117,.T.);
#106=EDGE_CURVE('',#95,#98,#44,.T.);
#107=EDGE_CURVE('',#99,#98,#118,.T.);
#108=EDGE_CURVE('',#96,#99,#45,.T.);
#109=EDGE_CURVE('',#98,#100,#119,.T.);
#110=EDGE_CURVE('',#101,#100,#120,.T.);
#111=EDGE_CURVE('',#99,#101,#121,.T.);
#112=EDGE_CURVE('',#100,#94,#46,.T.);
#113=EDGE_CURVE('',#101,#97,#47,.T.);
#114=LINE('',#172,#122);
#115=LINE('',#175,#123);
#116=LINE('',#177,#124);
#117=LINE('',#179,#125);
#118=LINE('',#183,#126);
#119=LINE('',#187,#127);
#120=LINE('',#189,#128);
#121=LINE('',#191,#129);
#122=VECTOR('',#143,1.);
#123=VECTOR('',#144,1.);
#124=VECTOR('',#145,1.);
#125=VECTOR('',#146,1.);
#126=VECTOR('',#151,1.);
#127=VECTOR('',#156,1.);
#128=VECTOR('',#157,1.);
#129=VECTOR('',#158,1.);
#130=AXIS2_PLACEMENT_3D('',#171,#141,#142);
#131=AXIS2_PLACEMENT_3D('',#180,#147,#148);
#132=AXIS2_PLACEMENT_3D('',#181,#149,#150);
#133=AXIS2_PLACEMENT_3D('',#185,#152,#153);
#134=AXIS2_PLACEMENT_3D('',#186,#154,#155);
#135=AXIS2_PLACEMENT_3D('',#192,#159,#160);
#136=AXIS2_PLACEMENT_3D('',#193,#161,#162);
#137=AXIS2_PLACEMENT_3D('',#194,#163,#164);
#138=AXIS2_PLACEMENT_3D('',#195,#165,#166);
#139=AXIS2_PLACEMENT_3D('',#196,#167,#168);
#140=AXIS2_PLACEMENT_3D('',#197,#169,#170);
#141=DIRECTION('',(0.,0.,1.));
#142=DIRECTION('',(1.,0.,0.));
#143=DIRECTION('',(-4.55415528432922E-16,-1.,0.));
#144=DIRECTION('',(0.,0.,-1.));
#145=DIRECTION('',(-4.55415528432922E-16,-1.,0.));
#146=DIRECTION('',(0.,0.,-1.));
#147=DIRECTION('',(1.,-4.55415528432922E-16,0.));
#148=DIRECTION('',(4.55415528432922E-16,1.,0.));
#149=DIRECTION('',(0.,0.,1.));
#150=DIRECTION('',(1.,0.,0.));
#151=DIRECTION('',(0.,0.,-1.));
#152=DIRECTION('',(0.,0.,1.));
#153=DIRECTION('',(1.,0.,0.));
#154=DIRECTION('',(0.,0.,-1.));
#155=DIRECTION('',(-1.,0.,0.));
#156=DIRECTION('',(0.,1.,0.));
#157=DIRECTION('',(0.,0.,-1.));
#158=DIRECTION('',(0.,1.,0.));
#159=DIRECTION('',(-1.,0.,0.));
#160=DIRECTION('',(0.,0.,1.));
#161=DIRECTION('',(0.,0.,1.));
#162=DIRECTION('',(1.,0.,0.));
#163=DIRECTION('',(0.,0.,1.));
#164=DIRECTION('',(1.,0.,0.));
#165=DIRECTION('',(0.,0.,-1.));
#166=DIRECTION('',(-1.,0.,0.));
#167=DIRECTION('',(0.,0.,1.));
#168=DIRECTION('',(1.,0.,0.));
#169=DIRECTION('',(0.,0.,1.));
#170=DIRECTION('',(1.,0.,0.));
#171=CARTESIAN_POINT('',(0.,0.,0.));
#172=CARTESIAN_POINT('',(3.59778267462008E-15,7.9,0.));
#173=CARTESIAN_POINT('',(3.59778267462008E-15,7.9,0.));
#174=CARTESIAN_POINT('',(4.5541552843293E-17,0.1,0.));
#175=CARTESIAN_POINT('',(4.5541552843293E-17,0.1,120.));
#176=CARTESIAN_POINT('',(4.5541552843293E-17,0.1,120.));
#177=CARTESIAN_POINT('',(3.59778267462008E-15,7.9,120.));
#178=CARTESIAN_POINT('',(3.59778267462008E-15,7.9,120.));
#179=CARTESIAN_POINT('',(3.59778267462008E-15,7.9,120.));
#180=CARTESIAN_POINT('',(3.59778267462008E-15,7.9,120.));
#181=CARTESIAN_POINT('',(0.0999999999999993,0.1,0.));
#182=CARTESIAN_POINT('',(0.199999999999999,0.1,0.));
#183=CARTESIAN_POINT('',(0.199999999999999,0.1,120.));
#184=CARTESIAN_POINT('',(0.199999999999999,0.1,120.));
#185=CARTESIAN_POINT('',(0.0999999999999993,0.1,120.));
#186=CARTESIAN_POINT('',(0.0999999999999993,0.1,120.));
#187=CARTESIAN_POINT('',(0.199999999999999,0.0999999999999997,0.));
#188=CARTESIAN_POINT('',(0.199999999999999,7.9,0.));
#189=CARTESIAN_POINT('',(0.199999999999999,7.9,120.));
#190=CARTESIAN_POINT('',(0.199999999999999,7.9,120.));
#191=CARTESIAN_POINT('',(0.199999999999999,0.0999999999999997,120.));
#192=CARTESIAN_POINT('',(0.199999999999999,0.0999999999999997,120.));
#193=CARTESIAN_POINT('',(0.0999999999999978,7.9,0.));
#194=CARTESIAN_POINT('',(0.0999999999999978,7.9,120.));
#195=CARTESIAN_POINT('',(0.0999999999999978,7.9,120.));
#196=CARTESIAN_POINT('',(0.0999999999999993,0.1,120.));
#197=CARTESIAN_POINT('',(0.0999999999999993,0.1,0.));
#198=MECHANICAL_DESIGN_GEOMETRIC_PRESENTATION_REPRESENTATION('',(#32),#199);
#199=(
GEOMETRIC_REPRESENTATION_CONTEXT(3)
GLOBAL_UNCERTAINTY_ASSIGNED_CONTEXT((#200))
GLOBAL_UNIT_ASSIGNED_CONTEXT((#206,#202,#201))
REPRESENTATION_CONTEXT('120MM SCALE A-6185-0012',
'TOP_LEVEL_ASSEMBLY_PART')
);
#200=UNCERTAINTY_MEASURE_WITH_UNIT(LENGTH_MEASURE(2.E-5),#206,
'DISTANCE_ACCURACY_VALUE','Maximum Tolerance applied to model');
#201=(
NAMED_UNIT(*)
SI_UNIT($,.STERADIAN.)
SOLID_ANGLE_UNIT()
);
#202=(
CONVERSION_BASED_UNIT('DEGREE',#204)
NAMED_UNIT(#203)
PLANE_ANGLE_UNIT()
);
#203=DIMENSIONAL_EXPONENTS(0.,0.,0.,0.,0.,0.,0.);
#204=PLANE_ANGLE_MEASURE_WITH_UNIT(PLANE_ANGLE_MEASURE(0.0174532925),#205);
#205=(
NAMED_UNIT(*)
PLANE_ANGLE_UNIT()
SI_UNIT($,.RADIAN.)
);
#206=(
LENGTH_UNIT()
NAMED_UNIT(*)
SI_UNIT(.MILLI.,.METRE.)
);
ENDSEC;
END-ISO-10303-21;
